ISO-10303-21;
HEADER;
FILE_DESCRIPTION (( 'STEP AP203' ),
    '1' );
FILE_NAME ('BK7-LPBSC-20-780.STEP',
    '2020-12-22T03:13:32',
    ( '' ),
    ( '' ),
    'SwSTEP 2.0',
    'SolidWorks 2020',
    '' );
FILE_SCHEMA (( 'CONFIG_CONTROL_DESIGN' ));
ENDSEC;

DATA;
#1 = CARTESIAN_POINT ( 'NONE',  ( -9.999999999999998224, -10.00000000000000000, 10.00000000000000000 ) ) ;
#2 = LINE ( 'NONE', #143, #250 ) ;
#3 = APPROVAL_DATE_TIME ( #284, #256 ) ;
#4 = DIRECTION ( 'NONE',  ( 2.220446049250313081E-16, 1.000000000000000000, 0.000000000000000000 ) ) ;
#5 = VERTEX_POINT ( 'NONE', #15 ) ;
#6 = DIRECTION ( 'NONE',  ( -1.000000000000000000, 0.000000000000000000, 0.000000000000000000 ) ) ;
#7 = EDGE_LOOP ( 'NONE', ( #177, #89, #144, #48 ) ) ;
#8 = COORDINATED_UNIVERSAL_TIME_OFFSET ( 8, 0, .AHEAD. ) ;
#9 = ORIENTED_EDGE ( 'NONE', *, *, #217, .T. ) ;
#10 = EDGE_LOOP ( 'NONE', ( #173, #122, #195, #9 ) ) ;
#11 = PERSON_AND_ORGANIZATION_ROLE ( 'creator' ) ;
#12 = VECTOR ( 'NONE', #271, 1000.000000000000000 ) ;
#13 = PLANE ( 'NONE',  #49 ) ;
#14 = ADVANCED_FACE ( 'NONE', ( #149 ), #254, .F. ) ;
#15 = CARTESIAN_POINT ( 'NONE',  ( 10.00000000000000178, 9.999999999999998224, 10.00000000000000000 ) ) ;
#16 = APPROVAL_STATUS ( 'not_yet_approved' ) ;
#17 = PLANE ( 'NONE',  #58 ) ;
#18 = DIRECTION ( 'NONE',  ( -0.000000000000000000, -0.000000000000000000, -1.000000000000000000 ) ) ;
#19 = VECTOR ( 'NONE', #46, 1000.000000000000000 ) ;
#20 = LINE ( 'NONE', #111, #172 ) ;
#21 = CARTESIAN_POINT ( 'NONE',  ( -9.999999999999998224, 10.00000000000000355, 10.00000000000000000 ) ) ;
#22 = DIRECTION ( 'NONE',  ( -0.000000000000000000, -0.000000000000000000, -1.000000000000000000 ) ) ;
#23 = LINE ( 'NONE', #1, #68 ) ;
#24 = ORIENTED_EDGE ( 'NONE', *, *, #61, .F. ) ;
#25 = PRODUCT_RELATED_PRODUCT_CATEGORY ( 'detail', '', ( #62 ) ) ;
#26 = DIRECTION ( 'NONE',  ( 0.000000000000000000, 0.000000000000000000, 1.000000000000000000 ) ) ;
#27 = PRODUCT_DEFINITION_SHAPE ( 'NONE', 'NONE',  #193 ) ;
#28 = CARTESIAN_POINT ( 'NONE',  ( 10.00000000000000000, 10.00000000000000000, 10.00000000000000000 ) ) ;
#29 = EDGE_LOOP ( 'NONE', ( #118, #249, #175, #73 ) ) ;
#30 = DATE_AND_TIME ( #228, #141 ) ;
#31 = ADVANCED_FACE ( 'NONE', ( #252 ), #123, .T. ) ;
#32 = ORIENTED_EDGE ( 'NONE', *, *, #82, .F. ) ;
#33 = PERSON_AND_ORGANIZATION ( #121, #196 ) ;
#34 = CARTESIAN_POINT ( 'NONE',  ( 0.000000000000000000, 0.000000000000000000, 10.00000000000000000 ) ) ;
#35 = CC_DESIGN_SECURITY_CLASSIFICATION ( #59, ( #208 ) ) ;
#36 = CALENDAR_DATE ( 2020, 22, 12 ) ;
#37 = CARTESIAN_POINT ( 'NONE',  ( 10.00000000000000000, 10.00000000000000000, 10.00000000000000000 ) ) ;
#38 = DIRECTION ( 'NONE',  ( 1.000000000000000000, -2.220446049250313081E-16, 0.000000000000000000 ) ) ;
#39 = AXIS2_PLACEMENT_3D ( 'NONE', #86, #316, #64 ) ;
#40 = LINE ( 'NONE', #133, #113 ) ;
#41 = DIRECTION ( 'NONE',  ( -0.7071067811865474617, 0.7071067811865475727, 0.000000000000000000 ) ) ;
#42 = DIRECTION ( 'NONE',  ( 0.7071067811865475727, 0.7071067811865474617, 0.000000000000000000 ) ) ;
#43 = DIRECTION ( 'NONE',  ( 0.7071067811865475727, 0.7071067811865474617, 0.000000000000000000 ) ) ;
#44 = ORIENTED_EDGE ( 'NONE', *, *, #142, .F. ) ;
#45 = APPROVAL_PERSON_ORGANIZATION ( #33, #270, #310 ) ;
#46 = DIRECTION ( 'NONE',  ( -0.000000000000000000, 0.000000000000000000, -1.000000000000000000 ) ) ;
#47 = VERTEX_POINT ( 'NONE', #287 ) ;
#48 = ORIENTED_EDGE ( 'NONE', *, *, #261, .T. ) ;
#49 = AXIS2_PLACEMENT_3D ( 'NONE', #209, #312, #180 ) ;
#50 =( NAMED_UNIT ( * ) PLANE_ANGLE_UNIT ( ) SI_UNIT ( $, .RADIAN. ) );
#51 = ADVANCED_FACE ( 'NONE', ( #128 ), #57, .F. ) ;
#52 = VERTEX_POINT ( 'NONE', #152 ) ;
#53 = CALENDAR_DATE ( 2020, 22, 12 ) ;
#54 = DIRECTION ( 'NONE',  ( 1.000000000000000000, -2.220446049250313081E-16, 0.000000000000000000 ) ) ;
#55 =( LENGTH_UNIT ( ) NAMED_UNIT ( * ) SI_UNIT ( .MILLI., .METRE. ) );
#56 = EDGE_LOOP ( 'NONE', ( #281, #299, #101 ) ) ;
#57 = PLANE ( 'NONE',  #146 ) ;
#58 = AXIS2_PLACEMENT_3D ( 'NONE', #186, #317, #42 ) ;
#59 = SECURITY_CLASSIFICATION ( '', '', #233 ) ;
#60 = CARTESIAN_POINT ( 'NONE',  ( 10.00000000000000178, 9.999999999999998224, 10.00000000000000000 ) ) ;
#61 = EDGE_CURVE ( 'NONE', #313, #234, #290, .T. ) ;
#62 = PRODUCT ( 'BK7-LPBSC-20-780', 'BK7-LPBSC-20-780', '', ( #226 ) ) ;
#63 = ADVANCED_FACE ( 'NONE', ( #154 ), #105, .T. ) ;
#64 = DIRECTION ( 'NONE',  ( 1.000000000000000000, 0.000000000000000000, 0.000000000000000000 ) ) ;
#65 = ADVANCED_FACE ( 'NONE', ( #232 ), #13, .F. ) ;
#66 = LINE ( 'NONE', #162, #92 ) ;
#67 = CARTESIAN_POINT ( 'NONE',  ( 10.00000000000000178, -10.00000000000000000, 10.00000000000000000 ) ) ;
#68 = VECTOR ( 'NONE', #22, 1000.000000000000000 ) ;
#69 = FACE_OUTER_BOUND ( 'NONE', #56, .T. ) ;
#70 = ORIENTED_EDGE ( 'NONE', *, *, #227, .T. ) ;
#71 = DIRECTION ( 'NONE',  ( -0.7071067811865475727, -0.7071067811865474617, 0.000000000000000000 ) ) ;
#72 = VERTEX_POINT ( 'NONE', #288 ) ;
#73 = ORIENTED_EDGE ( 'NONE', *, *, #235, .T. ) ;
#74 = VECTOR ( 'NONE', #18, 1000.000000000000000 ) ;
#75 = PERSON_AND_ORGANIZATION_ROLE ( 'design_owner' ) ;
#76 = VECTOR ( 'NONE', #71, 1000.000000000000000 ) ;
#77 = PERSON_AND_ORGANIZATION ( #121, #196 ) ;
#78 = DIRECTION ( 'NONE',  ( 2.220446049250313081E-16, 1.000000000000000000, 0.000000000000000000 ) ) ;
#79 = EDGE_LOOP ( 'NONE', ( #307, #218, #247 ) ) ;
#80 = CC_DESIGN_DATE_AND_TIME_ASSIGNMENT ( #291, #264, ( #59 ) ) ;
#81 = DIRECTION ( 'NONE',  ( 0.000000000000000000, 0.000000000000000000, 1.000000000000000000 ) ) ;
#82 = EDGE_CURVE ( 'NONE', #147, #221, #156, .T. ) ;
#83 = PERSON_AND_ORGANIZATION_ROLE ( 'classification_officer' ) ;
#84 = VECTOR ( 'NONE', #240, 1000.000000000000000 ) ;
#85 = CARTESIAN_POINT ( 'NONE',  ( 10.00000000000000000, 10.00000000000000000, 10.00000000000000000 ) ) ;
#86 = CARTESIAN_POINT ( 'NONE',  ( 0.000000000000000000, 0.000000000000000000, -10.00000000000000000 ) ) ;
#87 = VECTOR ( 'NONE', #194, 1000.000000000000000 ) ;
#88 = PLANE ( 'NONE',  #216 ) ;
#89 = ORIENTED_EDGE ( 'NONE', *, *, #179, .F. ) ;
#90 = DIRECTION ( 'NONE',  ( -0.000000000000000000, 0.000000000000000000, -1.000000000000000000 ) ) ;
#91 = ADVANCED_FACE ( 'NONE', ( #127 ), #210, .F. ) ;
#92 = VECTOR ( 'NONE', #320, 1000.000000000000000 ) ;
#93 = LINE ( 'NONE', #219, #295 ) ;
#94 = APPROVAL_STATUS ( 'not_yet_approved' ) ;
#95 = CARTESIAN_POINT ( 'NONE',  ( -10.00000000000000178, -9.999999999999996447, 10.00000000000000000 ) ) ;
#96 = VERTEX_POINT ( 'NONE', #202 ) ;
#97 = DIRECTION ( 'NONE',  ( 1.000000000000000000, 0.000000000000000000, 0.000000000000000000 ) ) ;
#98 = DIRECTION ( 'NONE',  ( 0.000000000000000000, 0.000000000000000000, 1.000000000000000000 ) ) ;
#99 = ORIENTED_EDGE ( 'NONE', *, *, #163, .T. ) ;
#100 = DIRECTION ( 'NONE',  ( 0.000000000000000000, -0.000000000000000000, 1.000000000000000000 ) ) ;
#101 = ORIENTED_EDGE ( 'NONE', *, *, #124, .T. ) ;
#102 = DIRECTION ( 'NONE',  ( 1.000000000000000000, 0.000000000000000000, 0.000000000000000000 ) ) ;
#103 = VERTEX_POINT ( 'NONE', #67 ) ;
#104 = PERSON_AND_ORGANIZATION ( #121, #196 ) ;
#105 = PLANE ( 'NONE',  #155 ) ;
#106 = EDGE_CURVE ( 'NONE', #96, #103, #20, .T. ) ;
#107 = ADVANCED_FACE ( 'NONE', ( #213 ), #214, .F. ) ;
#108 = VECTOR ( 'NONE', #224, 1000.000000000000000 ) ;
#109 = APPROVAL_DATE_TIME ( #129, #277 ) ;
#110 =( GEOMETRIC_REPRESENTATION_CONTEXT ( 3 ) GLOBAL_UNCERTAINTY_ASSIGNED_CONTEXT ( ( #182 ) ) GLOBAL_UNIT_ASSIGNED_CONTEXT ( ( #55, #50, #222 ) ) REPRESENTATION_CONTEXT ( 'NONE', 'WORKASPACE' ) );
#111 = CARTESIAN_POINT ( 'NONE',  ( -9.999999999999998224, -10.00000000000000000, 10.00000000000000000 ) ) ;
#112 = DIRECTION ( 'NONE',  ( -0.000000000000000000, 1.000000000000000000, -0.000000000000000000 ) ) ;
#113 = VECTOR ( 'NONE', #112, 1000.000000000000000 ) ;
#114 = CARTESIAN_POINT ( 'NONE',  ( 10.00000000000000178, 9.999999999999998224, 10.00000000000000000 ) ) ;
#115 = CARTESIAN_POINT ( 'NONE',  ( 10.00000000000000000, 10.00000000000000000, 10.00000000000000000 ) ) ;
#116 = ADVANCED_FACE ( 'NONE', ( #188 ), #88, .F. ) ;
#117 = COORDINATED_UNIVERSAL_TIME_OFFSET ( 8, 0, .AHEAD. ) ;
#118 = ORIENTED_EDGE ( 'NONE', *, *, #276, .F. ) ;
#119 = AXIS2_PLACEMENT_3D ( 'NONE', #245, #26, #97 ) ;
#120 = DATE_TIME_ROLE ( 'creation_date' ) ;
#121 = PERSON ( 'UNSPECIFIED', 'UNSPECIFIED', 'UNSPECIFIED', ('UNSPECIFIED'), ('UNSPECIFIED'), ('UNSPECIFIED') ) ;
#122 = ORIENTED_EDGE ( 'NONE', *, *, #227, .F. ) ;
#123 = PLANE ( 'NONE',  #205 ) ;
#124 = EDGE_CURVE ( 'NONE', #47, #72, #294, .T. ) ;
#125 = DIRECTION ( 'NONE',  ( 1.000000000000000000, 0.000000000000000000, 0.000000000000000000 ) ) ;
#126 = PERSON_AND_ORGANIZATION_ROLE ( 'design_supplier' ) ;
#127 = FACE_OUTER_BOUND ( 'NONE', #166, .T. ) ;
#128 = FACE_OUTER_BOUND ( 'NONE', #7, .T. ) ;
#129 = DATE_AND_TIME ( #36, #309 ) ;
#130 = VECTOR ( 'NONE', #38, 1000.000000000000000 ) ;
#131 = EDGE_CURVE ( 'NONE', #52, #47, #274, .T. ) ;
#132 = CC_DESIGN_PERSON_AND_ORGANIZATION_ASSIGNMENT ( #77, #11, ( #208 ) ) ;
#133 = CARTESIAN_POINT ( 'NONE',  ( 10.00000000000000178, 9.999999999999998224, 10.00000000000000000 ) ) ;
#134 = VECTOR ( 'NONE', #167, 1000.000000000000000 ) ;
#135 = DIRECTION ( 'NONE',  ( -0.7071067811865475727, -0.7071067811865474617, 0.000000000000000000 ) ) ;
#136 = ADVANCED_FACE ( 'NONE', ( #139 ), #17, .F. ) ;
#137 = EDGE_CURVE ( 'NONE', #297, #313, #269, .T. ) ;
#138 = DIRECTION ( 'NONE',  ( -0.000000000000000000, 1.000000000000000000, -0.000000000000000000 ) ) ;
#139 = FACE_OUTER_BOUND ( 'NONE', #10, .T. ) ;
#140 = ORIENTED_EDGE ( 'NONE', *, *, #235, .F. ) ;
#141 = LOCAL_TIME ( 11, 13, 32.00000000000000000, #206 ) ;
#142 = EDGE_CURVE ( 'NONE', #103, #5, #40, .T. ) ;
#143 = CARTESIAN_POINT ( 'NONE',  ( -10.00000000000000178, -9.999999999999996447, 10.00000000000000000 ) ) ;
#144 = ORIENTED_EDGE ( 'NONE', *, *, #82, .T. ) ;
#145 = LINE ( 'NONE', #115, #19 ) ;
#146 = AXIS2_PLACEMENT_3D ( 'NONE', #37, #204, #308 ) ;
#147 = VERTEX_POINT ( 'NONE', #21 ) ;
#148 = APPROVAL_ROLE ( '' ) ;
#149 = FACE_OUTER_BOUND ( 'NONE', #200, .T. ) ;
#150 = LOCAL_TIME ( 11, 13, 32.00000000000000000, #117 ) ;
#151 = CALENDAR_DATE ( 2020, 22, 12 ) ;
#152 = CARTESIAN_POINT ( 'NONE',  ( -10.00000000000000178, -9.999999999999996447, -10.00000000000000000 ) ) ;
#153 = PERSON_AND_ORGANIZATION ( #121, #196 ) ;
#154 = FACE_OUTER_BOUND ( 'NONE', #79, .T. ) ;
#155 = AXIS2_PLACEMENT_3D ( 'NONE', #34, #255, #125 ) ;
#156 = LINE ( 'NONE', #257, #130 ) ;
#157 = ORIENTED_EDGE ( 'NONE', *, *, #137, .F. ) ;
#158 = PERSON_AND_ORGANIZATION ( #121, #196 ) ;
#159 = CC_DESIGN_PERSON_AND_ORGANIZATION_ASSIGNMENT ( #184, #83, ( #59 ) ) ;
#160 = CARTESIAN_POINT ( 'NONE',  ( 10.00000000000000178, 9.999999999999998224, -10.00000000000000000 ) ) ;
#161 = DESIGN_CONTEXT ( 'detailed design', #293, 'design' ) ;
#162 = CARTESIAN_POINT ( 'NONE',  ( -9.999999999999998224, 10.00000000000000355, 10.00000000000000000 ) ) ;
#163 = EDGE_CURVE ( 'NONE', #103, #234, #215, .T. ) ;
#164 = CARTESIAN_POINT ( 'NONE',  ( 10.00000000000000000, 10.00000000000000000, -10.00000000000000000 ) ) ;
#165 = CARTESIAN_POINT ( 'NONE',  ( -10.00000000000000178, -9.999999999999996447, -10.00000000000000000 ) ) ;
#166 = EDGE_LOOP ( 'NONE', ( #311, #321, #44, #99 ) ) ;
#167 = DIRECTION ( 'NONE',  ( -0.000000000000000000, -0.000000000000000000, -1.000000000000000000 ) ) ;
#168 = EDGE_LOOP ( 'NONE', ( #243, #306, #225, #70 ) ) ;
#169 = LINE ( 'NONE', #300, #87 ) ;
#170 = LOCAL_TIME ( 11, 13, 32.00000000000000000, #183 ) ;
#171 = EDGE_LOOP ( 'NONE', ( #157, #286, #24 ) ) ;
#172 = VECTOR ( 'NONE', #292, 1000.000000000000000 ) ;
#173 = ORIENTED_EDGE ( 'NONE', *, *, #137, .T. ) ;
#174 = APPROVAL_STATUS ( 'not_yet_approved' ) ;
#175 = ORIENTED_EDGE ( 'NONE', *, *, #318, .T. ) ;
#176 = CC_DESIGN_APPROVAL ( #270, ( #208 ) ) ;
#177 = ORIENTED_EDGE ( 'NONE', *, *, #124, .F. ) ;
#178 = CC_DESIGN_DATE_AND_TIME_ASSIGNMENT ( #30, #120, ( #193 ) ) ;
#179 = EDGE_CURVE ( 'NONE', #147, #47, #66, .T. ) ;
#180 = DIRECTION ( 'NONE',  ( 0.000000000000000000, -0.000000000000000000, 1.000000000000000000 ) ) ;
#181 = AXIS2_PLACEMENT_3D ( 'NONE', #259, #54, #81 ) ;
#182 = UNCERTAINTY_MEASURE_WITH_UNIT (LENGTH_MEASURE( 1.000000000000000082E-05 ), #55, 'distance_accuracy_value', 'NONE');
#183 = COORDINATED_UNIVERSAL_TIME_OFFSET ( 8, 0, .AHEAD. ) ;
#184 = PERSON_AND_ORGANIZATION ( #121, #196 ) ;
#185 = AXIS2_PLACEMENT_3D ( 'NONE', #280, #199, #4 ) ;
#186 = CARTESIAN_POINT ( 'NONE',  ( 10.00000000000000178, 9.999999999999998224, 10.00000000000000000 ) ) ;
#187 = EDGE_CURVE ( 'NONE', #234, #297, #191, .T. ) ;
#188 = FACE_OUTER_BOUND ( 'NONE', #29, .T. ) ;
#189 = VECTOR ( 'NONE', #102, 1000.000000000000000 ) ;
#190 = LOCAL_TIME ( 11, 13, 32.00000000000000000, #8 ) ;
#191 = LINE ( 'NONE', #296, #289 ) ;
#192 = DIRECTION ( 'NONE',  ( -0.7071067811865475727, -0.7071067811865474617, 0.000000000000000000 ) ) ;
#193 = PRODUCT_DEFINITION ( 'UNKNOWN', '', #208, #161 ) ;
#194 = DIRECTION ( 'NONE',  ( -0.7071067811865475727, -0.7071067811865474617, 0.000000000000000000 ) ) ;
#195 = ORIENTED_EDGE ( 'NONE', *, *, #285, .F. ) ;
#196 = ORGANIZATION ( 'UNSPECIFIED', 'UNSPECIFIED', '' ) ;
#197 = PERSON_AND_ORGANIZATION ( #121, #196 ) ;
#198 = MANIFOLD_SOLID_BREP ( 'Í¹Ì¨-À', #272 ) ;
#199 = DIRECTION ( 'NONE',  ( 0.000000000000000000, -0.000000000000000000, 1.000000000000000000 ) ) ;
#200 = EDGE_LOOP ( 'NONE', ( #282, #140, #230, #283 ) ) ;
#201 = PERSON_AND_ORGANIZATION ( #121, #196 ) ;
#202 = CARTESIAN_POINT ( 'NONE',  ( -9.999999999999998224, -10.00000000000000000, 10.00000000000000000 ) ) ;
#203 = EDGE_LOOP ( 'NONE', ( #279, #32, #229 ) ) ;
#204 = DIRECTION ( 'NONE',  ( -2.220446049250313081E-16, -1.000000000000000000, 0.000000000000000000 ) ) ;
#205 = AXIS2_PLACEMENT_3D ( 'NONE', #207, #100, #78 ) ;
#206 = COORDINATED_UNIVERSAL_TIME_OFFSET ( 8, 0, .AHEAD. ) ;
#207 = CARTESIAN_POINT ( 'NONE',  ( 0.000000000000000000, 0.000000000000000000, 10.00000000000000000 ) ) ;
#208 = PRODUCT_DEFINITION_FORMATION_WITH_SPECIFIED_SOURCE ( 'ANY', '', #62, .NOT_KNOWN. ) ;
#209 = CARTESIAN_POINT ( 'NONE',  ( -9.999999999999998224, -10.00000000000000000, 10.00000000000000000 ) ) ;
#210 = PLANE ( 'NONE',  #319 ) ;
#211 = APPROVAL_ROLE ( '' ) ;
#212 = MANIFOLD_SOLID_BREP ( '¾µÏ', #262 ) ;
#213 = FACE_OUTER_BOUND ( 'NONE', #171, .T. ) ;
#214 = PLANE ( 'NONE',  #39 ) ;
#215 = LINE ( 'NONE', #236, #74 ) ;
#216 = AXIS2_PLACEMENT_3D ( 'NONE', #85, #41, #43 ) ;
#217 = EDGE_CURVE ( 'NONE', #5, #297, #275, .T. ) ;
#218 = ORIENTED_EDGE ( 'NONE', *, *, #106, .T. ) ;
#219 = CARTESIAN_POINT ( 'NONE',  ( 10.00000000000000000, 10.00000000000000000, -10.00000000000000000 ) ) ;
#220 = CARTESIAN_POINT ( 'NONE',  ( 10.00000000000000178, 9.999999999999998224, -10.00000000000000000 ) ) ;
#221 = VERTEX_POINT ( 'NONE', #298 ) ;
#222 =( NAMED_UNIT ( * ) SI_UNIT ( $, .STERADIAN. ) SOLID_ANGLE_UNIT ( ) );
#223 = ADVANCED_FACE ( 'NONE', ( #69 ), #278, .F. ) ;
#224 = DIRECTION ( 'NONE',  ( 2.220446049250313081E-16, 1.000000000000000000, 0.000000000000000000 ) ) ;
#225 = ORIENTED_EDGE ( 'NONE', *, *, #106, .F. ) ;
#226 = MECHANICAL_CONTEXT ( 'NONE', #268, 'mechanical' ) ;
#227 = EDGE_CURVE ( 'NONE', #96, #313, #23, .T. ) ;
#228 = CALENDAR_DATE ( 2020, 22, 12 ) ;
#229 = ORIENTED_EDGE ( 'NONE', *, *, #239, .F. ) ;
#230 = ORIENTED_EDGE ( 'NONE', *, *, #239, .T. ) ;
#231 = CARTESIAN_POINT ( 'NONE',  ( -9.999999999999998224, -10.00000000000000000, -10.00000000000000000 ) ) ;
#232 = FACE_OUTER_BOUND ( 'NONE', #168, .T. ) ;
#233 = SECURITY_CLASSIFICATION_LEVEL ( 'unclassified' ) ;
#234 = VERTEX_POINT ( 'NONE', #303 ) ;
#235 = EDGE_CURVE ( 'NONE', #304, #52, #2, .T. ) ;
#236 = CARTESIAN_POINT ( 'NONE',  ( 10.00000000000000178, -10.00000000000000000, 10.00000000000000000 ) ) ;
#237 = VECTOR ( 'NONE', #135, 1000.000000000000000 ) ;
#238 = CC_DESIGN_PERSON_AND_ORGANIZATION_ASSIGNMENT ( #158, #126, ( #208 ) ) ;
#239 = EDGE_CURVE ( 'NONE', #304, #147, #242, .T. ) ;
#240 = DIRECTION ( 'NONE',  ( 2.220446049250313081E-16, 1.000000000000000000, 0.000000000000000000 ) ) ;
#241 = CC_DESIGN_PERSON_AND_ORGANIZATION_ASSIGNMENT ( #201, #75, ( #62 ) ) ;
#242 = LINE ( 'NONE', #95, #108 ) ;
#243 = ORIENTED_EDGE ( 'NONE', *, *, #61, .T. ) ;
#244 = CARTESIAN_POINT ( 'NONE',  ( -10.00000000000000178, -9.999999999999996447, 10.00000000000000000 ) ) ;
#245 = CARTESIAN_POINT ( 'NONE',  ( 0.000000000000000000, 0.000000000000000000, 0.000000000000000000 ) ) ;
#246 = LINE ( 'NONE', #28, #76 ) ;
#247 = ORIENTED_EDGE ( 'NONE', *, *, #142, .T. ) ;
#248 = APPLICATION_PROTOCOL_DEFINITION ( 'international standard', 'config_control_design', 1994, #268 ) ;
#249 = ORIENTED_EDGE ( 'NONE', *, *, #261, .F. ) ;
#250 = VECTOR ( 'NONE', #90, 1000.000000000000000 ) ;
#251 = PERSON_AND_ORGANIZATION_ROLE ( 'creator' ) ;
#252 = FACE_OUTER_BOUND ( 'NONE', #203, .T. ) ;
#253 = DATE_AND_TIME ( #53, #190 ) ;
#254 = PLANE ( 'NONE',  #181 ) ;
#255 = DIRECTION ( 'NONE',  ( -0.000000000000000000, 0.000000000000000000, 1.000000000000000000 ) ) ;
#256 = APPROVAL ( #174, 'UNSPECIFIED' ) ;
#257 = CARTESIAN_POINT ( 'NONE',  ( 10.00000000000000000, 10.00000000000000000, 10.00000000000000000 ) ) ;
#258 = APPROVAL_PERSON_ORGANIZATION ( #153, #256, #148 ) ;
#259 = CARTESIAN_POINT ( 'NONE',  ( -10.00000000000000178, -9.999999999999996447, 10.00000000000000000 ) ) ;
#260 = CALENDAR_DATE ( 2020, 22, 12 ) ;
#261 = EDGE_CURVE ( 'NONE', #221, #72, #145, .T. ) ;
#262 = CLOSED_SHELL ( 'NONE', ( #116, #14, #51, #31, #223 ) ) ;
#263 = ADVANCED_BREP_SHAPE_REPRESENTATION ( 'BK7-LPBSC-20-780', ( #198, #212, #119 ), #110 ) ;
#264 = DATE_TIME_ROLE ( 'classification_date' ) ;
#265 = CC_DESIGN_APPROVAL ( #277, ( #59 ) ) ;
#266 = CC_DESIGN_PERSON_AND_ORGANIZATION_ASSIGNMENT ( #197, #251, ( #193 ) ) ;
#267 = SHAPE_DEFINITION_REPRESENTATION ( #27, #263 ) ;
#268 = APPLICATION_CONTEXT ( 'configuration controlled 3d designs of mechanical parts and assemblies' ) ;
#269 = LINE ( 'NONE', #160, #237 ) ;
#270 = APPROVAL ( #94, 'UNSPECIFIED' ) ;
#271 = DIRECTION ( 'NONE',  ( 1.000000000000000000, -2.220446049250313081E-16, 0.000000000000000000 ) ) ;
#272 = CLOSED_SHELL ( 'NONE', ( #136, #65, #91, #63, #107 ) ) ;
#273 = APPROVAL_PERSON_ORGANIZATION ( #104, #277, #211 ) ;
#274 = LINE ( 'NONE', #165, #84 ) ;
#275 = LINE ( 'NONE', #114, #134 ) ;
#276 = EDGE_CURVE ( 'NONE', #72, #52, #93, .T. ) ;
#277 = APPROVAL ( #16, 'UNSPECIFIED' ) ;
#278 = PLANE ( 'NONE',  #185 ) ;
#279 = ORIENTED_EDGE ( 'NONE', *, *, #318, .F. ) ;
#280 = CARTESIAN_POINT ( 'NONE',  ( 0.000000000000000000, 0.000000000000000000, -10.00000000000000000 ) ) ;
#281 = ORIENTED_EDGE ( 'NONE', *, *, #276, .T. ) ;
#282 = ORIENTED_EDGE ( 'NONE', *, *, #131, .F. ) ;
#283 = ORIENTED_EDGE ( 'NONE', *, *, #179, .T. ) ;
#284 = DATE_AND_TIME ( #151, #150 ) ;
#285 = EDGE_CURVE ( 'NONE', #5, #96, #169, .T. ) ;
#286 = ORIENTED_EDGE ( 'NONE', *, *, #187, .F. ) ;
#287 = CARTESIAN_POINT ( 'NONE',  ( -9.999999999999998224, 10.00000000000000355, -10.00000000000000000 ) ) ;
#288 = CARTESIAN_POINT ( 'NONE',  ( 10.00000000000000000, 10.00000000000000000, -10.00000000000000000 ) ) ;
#289 = VECTOR ( 'NONE', #138, 1000.000000000000000 ) ;
#290 = LINE ( 'NONE', #231, #189 ) ;
#291 = DATE_AND_TIME ( #260, #170 ) ;
#292 = DIRECTION ( 'NONE',  ( 1.000000000000000000, 0.000000000000000000, 0.000000000000000000 ) ) ;
#293 = APPLICATION_CONTEXT ( 'configuration controlled 3d designs of mechanical parts and assemblies' ) ;
#294 = LINE ( 'NONE', #164, #12 ) ;
#295 = VECTOR ( 'NONE', #192, 1000.000000000000000 ) ;
#296 = CARTESIAN_POINT ( 'NONE',  ( 10.00000000000000178, 9.999999999999998224, -10.00000000000000000 ) ) ;
#297 = VERTEX_POINT ( 'NONE', #220 ) ;
#298 = CARTESIAN_POINT ( 'NONE',  ( 10.00000000000000000, 10.00000000000000000, 10.00000000000000000 ) ) ;
#299 = ORIENTED_EDGE ( 'NONE', *, *, #131, .T. ) ;
#300 = CARTESIAN_POINT ( 'NONE',  ( 10.00000000000000178, 9.999999999999998224, 10.00000000000000000 ) ) ;
#301 = CARTESIAN_POINT ( 'NONE',  ( -9.999999999999998224, -10.00000000000000000, -10.00000000000000000 ) ) ;
#302 = APPROVAL_DATE_TIME ( #253, #270 ) ;
#303 = CARTESIAN_POINT ( 'NONE',  ( 10.00000000000000178, -10.00000000000000000, -10.00000000000000000 ) ) ;
#304 = VERTEX_POINT ( 'NONE', #244 ) ;
#305 = APPLICATION_PROTOCOL_DEFINITION ( 'international standard', 'config_control_design', 1994, #293 ) ;
#306 = ORIENTED_EDGE ( 'NONE', *, *, #163, .F. ) ;
#307 = ORIENTED_EDGE ( 'NONE', *, *, #285, .T. ) ;
#308 = DIRECTION ( 'NONE',  ( 0.000000000000000000, 0.000000000000000000, 1.000000000000000000 ) ) ;
#309 = LOCAL_TIME ( 11, 13, 32.00000000000000000, #315 ) ;
#310 = APPROVAL_ROLE ( '' ) ;
#311 = ORIENTED_EDGE ( 'NONE', *, *, #187, .T. ) ;
#312 = DIRECTION ( 'NONE',  ( 0.000000000000000000, 1.000000000000000000, 0.000000000000000000 ) ) ;
#313 = VERTEX_POINT ( 'NONE', #301 ) ;
#314 = CC_DESIGN_APPROVAL ( #256, ( #193 ) ) ;
#315 = COORDINATED_UNIVERSAL_TIME_OFFSET ( 8, 0, .AHEAD. ) ;
#316 = DIRECTION ( 'NONE',  ( -0.000000000000000000, 0.000000000000000000, 1.000000000000000000 ) ) ;
#317 = DIRECTION ( 'NONE',  ( 0.7071067811865474617, -0.7071067811865475727, 0.000000000000000000 ) ) ;
#318 = EDGE_CURVE ( 'NONE', #221, #304, #246, .T. ) ;
#319 = AXIS2_PLACEMENT_3D ( 'NONE', #60, #6, #98 ) ;
#320 = DIRECTION ( 'NONE',  ( -0.000000000000000000, 0.000000000000000000, -1.000000000000000000 ) ) ;
#321 = ORIENTED_EDGE ( 'NONE', *, *, #217, .F. ) ;
ENDSEC;
END-ISO-10303-21;
